ISO-10303-21;
HEADER;
FILE_DESCRIPTION (( 'STEP AP203' ),
    '1' );
FILE_NAME ('PE1001-1_3D.step',
    '2021-08-23T16:24:00',
    ( '' ),
    ( '' ),
    'SwSTEP 2.0',
    'SolidWorks 2021',
    '' );
FILE_SCHEMA (( 'CONFIG_CONTROL_DESIGN' ));
ENDSEC;

DATA;
#1 = DIRECTION ( 'NONE',  ( -1.000000000000000000, -0.000000000000000000, -0.000000000000000000 ) ) ;
#2 = DIRECTION ( 'NONE',  ( -1.000000000000000000, -0.000000000000000000, -0.000000000000000000 ) ) ;
#3 = CARTESIAN_POINT ( 'NONE',  ( 0.07299999999999999545, 0.006000000000000000125, 0.000000000000000000 ) ) ;
#4 = CARTESIAN_POINT ( 'NONE',  ( 0.3130000000000000004, 0.000000000000000000, 0.006000000000000000992 ) ) ;
#5 = APPROVAL_PERSON_ORGANIZATION ( #40, #59, #186 ) ;
#6 = PERSON_AND_ORGANIZATION ( #292, #286 ) ;
#7 = CARTESIAN_POINT ( 'NONE',  ( 0.07299999999999999545, 0.000000000000000000, 0.04900000000000000883 ) ) ;
#8 = PERSON_AND_ORGANIZATION ( #292, #286 ) ;
#9 = DIRECTION ( 'NONE',  ( -1.000000000000000000, 0.000000000000000000, 0.000000000000000000 ) ) ;
#10 = LOCAL_TIME ( 9, 24, 0.000000000000000000, #51 ) ;
#11 = CC_DESIGN_PERSON_AND_ORGANIZATION_ASSIGNMENT ( #310, #57, ( #195 ) ) ;
#12 = ORIENTED_EDGE ( 'NONE', *, *, #99, .T. ) ;
#13 = CIRCLE ( 'NONE', #86, 0.006000000000000000992 ) ;
#14 = CYLINDRICAL_SURFACE ( 'NONE', #220, 0.04400000000000000439 ) ;
#15 = EDGE_CURVE ( 'NONE', #78, #78, #321, .T. ) ;
#16 = DIRECTION ( 'NONE',  ( -1.000000000000000000, -0.000000000000000000, -0.000000000000000000 ) ) ;
#17 = AXIS2_PLACEMENT_3D ( 'NONE', #106, #289, #110 ) ;
#18 = PRODUCT ( 'PE1001-1_3D', 'PE1001-1_3D', '', ( #94 ) ) ;
#19 = ORIENTED_EDGE ( 'NONE', *, *, #259, .T. ) ;
#20 = EDGE_LOOP ( 'NONE', ( #150 ) ) ;
#21 = CARTESIAN_POINT ( 'NONE',  ( 0.3150000000000000022, 0.000000000000000000, 0.000000000000000000 ) ) ;
#22 = FACE_OUTER_BOUND ( 'NONE', #104, .T. ) ;
#23 = DATE_AND_TIME ( #232, #63 ) ;
#24 = ORIENTED_EDGE ( 'NONE', *, *, #295, .T. ) ;
#25 = ADVANCED_FACE ( 'NONE', ( #278, #22 ), #283, .T. ) ;
#26 = DIRECTION ( 'NONE',  ( 0.000000000000000000, 0.000000000000000000, 1.000000000000000000 ) ) ;
#27 = PLANE ( 'NONE',  #39 ) ;
#28 = AXIS2_PLACEMENT_3D ( 'NONE', #225, #200, #248 ) ;
#29 = APPROVAL_DATE_TIME ( #258, #238 ) ;
#30 = FACE_OUTER_BOUND ( 'NONE', #127, .T. ) ;
#31 = ORIENTED_EDGE ( 'NONE', *, *, #33, .T. ) ;
#32 = DIRECTION ( 'NONE',  ( 1.000000000000000000, 0.000000000000000000, 0.000000000000000000 ) ) ;
#33 = EDGE_CURVE ( 'NONE', #231, #231, #198, .T. ) ;
#34 = COORDINATED_UNIVERSAL_TIME_OFFSET ( 8, 0, .BEHIND. ) ;
#35 = AXIS2_PLACEMENT_3D ( 'NONE', #60, #32, #183 ) ;
#36 = CYLINDRICAL_SURFACE ( 'NONE', #201, 0.006000000000000000125 ) ;
#37 = DIRECTION ( 'NONE',  ( 0.000000000000000000, 0.000000000000000000, 1.000000000000000000 ) ) ;
#38 = ADVANCED_FACE ( 'NONE', ( #306, #102 ), #77, .F. ) ;
#39 = AXIS2_PLACEMENT_3D ( 'NONE', #205, #313, #177 ) ;
#40 = PERSON_AND_ORGANIZATION ( #292, #286 ) ;
#41 = CARTESIAN_POINT ( 'NONE',  ( 0.000000000000000000, 0.000000000000000000, 0.000000000000000000 ) ) ;
#42 = CARTESIAN_POINT ( 'NONE',  ( 0.1329999999999999793, 0.000000000000000000, -0.006000000000000000992 ) ) ;
#43 =( CONVERSION_BASED_UNIT ( 'INCH', #166 ) LENGTH_UNIT ( ) NAMED_UNIT ( #180 ) );
#44 = ORIENTED_EDGE ( 'NONE', *, *, #314, .F. ) ;
#45 = CARTESIAN_POINT ( 'NONE',  ( 0.1329999999999999793, 0.000000000000000000, 0.000000000000000000 ) ) ;
#46 = ADVANCED_BREP_SHAPE_REPRESENTATION ( 'PE1001-1_3D', ( #215, #90 ), #156 ) ;
#47 = CC_DESIGN_PERSON_AND_ORGANIZATION_ASSIGNMENT ( #152, #81, ( #209 ) ) ;
#48 = EDGE_LOOP ( 'NONE', ( #308 ) ) ;
#49 = EDGE_LOOP ( 'NONE', ( #315 ) ) ;
#50 = DIRECTION ( 'NONE',  ( 0.000000000000000000, 0.000000000000000000, 1.000000000000000000 ) ) ;
#51 = COORDINATED_UNIVERSAL_TIME_OFFSET ( 8, 0, .BEHIND. ) ;
#52 = ADVANCED_FACE ( 'NONE', ( #331, #175 ), #58, .T. ) ;
#53 = EDGE_LOOP ( 'NONE', ( #44 ) ) ;
#54 = FACE_OUTER_BOUND ( 'NONE', #210, .T. ) ;
#55 = DIRECTION ( 'NONE',  ( 0.000000000000000000, 0.000000000000000000, -1.000000000000000000 ) ) ;
#56 = DIRECTION ( 'NONE',  ( 1.000000000000000000, 0.000000000000000000, 0.000000000000000000 ) ) ;
#57 = PERSON_AND_ORGANIZATION_ROLE ( 'classification_officer' ) ;
#58 = TOROIDAL_SURFACE ( 'NONE', #76, 0.004000000000000000951, 0.002000000000000000042 ) ;
#59 = APPROVAL ( #299, 'UNSPECIFIED' ) ;
#60 = CARTESIAN_POINT ( 'NONE',  ( 0.002000000000000000042, 0.000000000000000000, 0.000000000000000000 ) ) ;
#61 = EDGE_LOOP ( 'NONE', ( #24 ) ) ;
#62 = PLANE ( 'NONE',  #250 ) ;
#63 = LOCAL_TIME ( 9, 24, 0.000000000000000000, #34 ) ;
#64 = DIRECTION ( 'NONE',  ( 0.000000000000000000, 0.000000000000000000, 1.000000000000000000 ) ) ;
#65 = APPROVAL_PERSON_ORGANIZATION ( #132, #291, #262 ) ;
#66 = CALENDAR_DATE ( 2021, 23, 8 ) ;
#67 = VERTEX_POINT ( 'NONE', #4 ) ;
#68 = AXIS2_PLACEMENT_3D ( 'NONE', #80, #2, #211 ) ;
#69 = DIRECTION ( 'NONE',  ( 1.000000000000000000, 0.000000000000000000, 0.000000000000000000 ) ) ;
#70 = AXIS2_PLACEMENT_3D ( 'NONE', #329, #309, #103 ) ;
#71 = EDGE_LOOP ( 'NONE', ( #154 ) ) ;
#72 = ORIENTED_EDGE ( 'NONE', *, *, #144, .T. ) ;
#73 = LOCAL_TIME ( 9, 24, 0.000000000000000000, #189 ) ;
#74 = APPLICATION_CONTEXT ( 'configuration controlled 3d designs of mechanical parts and assemblies' ) ;
#75 = CC_DESIGN_PERSON_AND_ORGANIZATION_ASSIGNMENT ( #6, #143, ( #244 ) ) ;
#76 = AXIS2_PLACEMENT_3D ( 'NONE', #253, #256, #26 ) ;
#77 = CYLINDRICAL_SURFACE ( 'NONE', #218, 0.04400000000000000439 ) ;
#78 = VERTEX_POINT ( 'NONE', #131 ) ;
#79 = DIRECTION ( 'NONE',  ( 0.000000000000000000, 0.000000000000000000, 1.000000000000000000 ) ) ;
#80 = CARTESIAN_POINT ( 'NONE',  ( 0.07299999999999999545, 0.000000000000000000, 0.000000000000000000 ) ) ;
#81 = PERSON_AND_ORGANIZATION_ROLE ( 'creator' ) ;
#82 = APPROVAL_PERSON_ORGANIZATION ( #8, #238, #270 ) ;
#83 = AXIS2_PLACEMENT_3D ( 'NONE', #111, #290, #257 ) ;
#84 = EDGE_LOOP ( 'NONE', ( #311 ) ) ;
#85 = FACE_BOUND ( 'NONE', #84, .T. ) ;
#86 = AXIS2_PLACEMENT_3D ( 'NONE', #45, #128, #246 ) ;
#87 = EDGE_LOOP ( 'NONE', ( #282 ) ) ;
#88 = DIRECTION ( 'NONE',  ( 1.000000000000000000, 0.000000000000000000, 0.000000000000000000 ) ) ;
#89 = FACE_OUTER_BOUND ( 'NONE', #71, .T. ) ;
#90 = AXIS2_PLACEMENT_3D ( 'NONE', #41, #322, #115 ) ;
#91 = VERTEX_POINT ( 'NONE', #42 ) ;
#92 = ADVANCED_FACE ( 'NONE', ( #337, #54 ), #130, .T. ) ;
#93 = APPROVAL_STATUS ( 'not_yet_approved' ) ;
#94 = MECHANICAL_CONTEXT ( 'NONE', #74, 'mechanical' ) ;
#95 = ADVANCED_FACE ( 'NONE', ( #169, #147 ), #249, .T. ) ;
#96 = VERTEX_POINT ( 'NONE', #7 ) ;
#97 = ORIENTED_EDGE ( 'NONE', *, *, #301, .T. ) ;
#98 = VERTEX_POINT ( 'NONE', #272 ) ;
#99 = EDGE_CURVE ( 'NONE', #108, #108, #266, .T. ) ;
#100 = AXIS2_PLACEMENT_3D ( 'NONE', #336, #163, #37 ) ;
#101 = DIRECTION ( 'NONE',  ( 0.000000000000000000, 0.000000000000000000, 1.000000000000000000 ) ) ;
#102 = FACE_OUTER_BOUND ( 'NONE', #288, .T. ) ;
#103 = DIRECTION ( 'NONE',  ( 0.000000000000000000, 0.000000000000000000, -1.000000000000000000 ) ) ;
#104 = EDGE_LOOP ( 'NONE', ( #72 ) ) ;
#105 = ORIENTED_EDGE ( 'NONE', *, *, #120, .F. ) ;
#106 = CARTESIAN_POINT ( 'NONE',  ( 0.002000000000000000042, 0.000000000000000000, 0.000000000000000000 ) ) ;
#107 = CARTESIAN_POINT ( 'NONE',  ( 0.07499999999999999722, 0.000000000000000000, 0.000000000000000000 ) ) ;
#108 = VERTEX_POINT ( 'NONE', #208 ) ;
#109 = FACE_OUTER_BOUND ( 'NONE', #280, .T. ) ;
#110 = DIRECTION ( 'NONE',  ( 0.000000000000000000, 0.000000000000000000, -1.000000000000000000 ) ) ;
#111 = CARTESIAN_POINT ( 'NONE',  ( 0.000000000000000000, 0.000000000000000000, 0.000000000000000000 ) ) ;
#112 = ADVANCED_FACE ( 'NONE', ( #194, #149 ), #121, .F. ) ;
#113 = CIRCLE ( 'NONE', #68, 0.04900000000000000883 ) ;
#114 = DATE_AND_TIME ( #268, #73 ) ;
#115 = DIRECTION ( 'NONE',  ( 1.000000000000000000, 0.000000000000000000, 0.000000000000000000 ) ) ;
#116 = VERTEX_POINT ( 'NONE', #192 ) ;
#117 = CIRCLE ( 'NONE', #100, 0.006000000000000000992 ) ;
#118 = EDGE_LOOP ( 'NONE', ( #19 ) ) ;
#119 = AXIS2_PLACEMENT_3D ( 'NONE', #170, #199, #252 ) ;
#120 = EDGE_CURVE ( 'NONE', #179, #179, #326, .T. ) ;
#121 = PLANE ( 'NONE',  #119 ) ;
#122 = DIRECTION ( 'NONE',  ( 0.000000000000000000, 0.000000000000000000, 1.000000000000000000 ) ) ;
#123 = ORIENTED_EDGE ( 'NONE', *, *, #234, .T. ) ;
#124 = CARTESIAN_POINT ( 'NONE',  ( 0.000000000000000000, 0.000000000000000000, 0.000000000000000000 ) ) ;
#125 = EDGE_CURVE ( 'NONE', #157, #157, #167, .T. ) ;
#126 = DIRECTION ( 'NONE',  ( -1.000000000000000000, -0.000000000000000000, -0.000000000000000000 ) ) ;
#127 = EDGE_LOOP ( 'NONE', ( #176 ) ) ;
#128 = DIRECTION ( 'NONE',  ( 1.000000000000000000, 0.000000000000000000, 0.000000000000000000 ) ) ;
#129 = CC_DESIGN_DATE_AND_TIME_ASSIGNMENT ( #181, #137, ( #195 ) ) ;
#130 = PLANE ( 'NONE',  #206 ) ;
#131 = CARTESIAN_POINT ( 'NONE',  ( 0.07299999999999999545, 0.000000000000000000, 0.04400000000000000439 ) ) ;
#132 = PERSON_AND_ORGANIZATION ( #292, #286 ) ;
#133 = DIRECTION ( 'NONE',  ( 0.000000000000000000, 0.000000000000000000, 1.000000000000000000 ) ) ;
#134 = CALENDAR_DATE ( 2021, 23, 8 ) ;
#135 = EDGE_LOOP ( 'NONE', ( #12 ) ) ;
#136 = FACE_OUTER_BOUND ( 'NONE', #173, .T. ) ;
#137 = DATE_TIME_ROLE ( 'classification_date' ) ;
#138 = CLOSED_SHELL ( 'NONE', ( #161, #95, #112, #38, #187, #327, #52, #25, #153, #92, #271, #267, #305 ) ) ;
#139 = DIRECTION ( 'NONE',  ( -1.000000000000000000, -0.000000000000000000, -0.000000000000000000 ) ) ;
#140 = CIRCLE ( 'NONE', #172, 0.04900000000000000189 ) ;
#141 =( NAMED_UNIT ( * ) PLANE_ANGLE_UNIT ( ) SI_UNIT ( $, .RADIAN. ) );
#142 = COORDINATED_UNIVERSAL_TIME_OFFSET ( 8, 0, .BEHIND. ) ;
#143 = PERSON_AND_ORGANIZATION_ROLE ( 'creator' ) ;
#144 = EDGE_CURVE ( 'NONE', #91, #91, #13, .T. ) ;
#145 = CARTESIAN_POINT ( 'NONE',  ( 0.07499999999999999722, 0.000000000000000000, 0.000000000000000000 ) ) ;
#146 = CC_DESIGN_PERSON_AND_ORGANIZATION_ASSIGNMENT ( #273, #242, ( #18 ) ) ;
#147 = FACE_OUTER_BOUND ( 'NONE', #118, .T. ) ;
#148 = DIRECTION ( 'NONE',  ( -1.000000000000000000, 0.000000000000000000, 0.000000000000000000 ) ) ;
#149 = FACE_OUTER_BOUND ( 'NONE', #333, .T. ) ;
#150 = ORIENTED_EDGE ( 'NONE', *, *, #314, .T. ) ;
#151 = DIRECTION ( 'NONE',  ( 0.000000000000000000, 0.000000000000000000, -1.000000000000000000 ) ) ;
#152 = PERSON_AND_ORGANIZATION ( #292, #286 ) ;
#153 = ADVANCED_FACE ( 'NONE', ( #276, #245 ), #14, .F. ) ;
#154 = ORIENTED_EDGE ( 'NONE', *, *, #285, .T. ) ;
#155 = DIRECTION ( 'NONE',  ( 0.000000000000000000, 0.000000000000000000, 1.000000000000000000 ) ) ;
#156 =( GEOMETRIC_REPRESENTATION_CONTEXT ( 3 ) GLOBAL_UNCERTAINTY_ASSIGNED_CONTEXT ( ( #334 ) ) GLOBAL_UNIT_ASSIGNED_CONTEXT ( ( #43, #141, #219 ) ) REPRESENTATION_CONTEXT ( 'NONE', 'WORKASPACE' ) );
#157 = VERTEX_POINT ( 'NONE', #275 ) ;
#158 = SHAPE_DEFINITION_REPRESENTATION ( #247, #46 ) ;
#159 = DIRECTION ( 'NONE',  ( 1.000000000000000000, 0.000000000000000000, 0.000000000000000000 ) ) ;
#160 = FACE_OUTER_BOUND ( 'NONE', #61, .T. ) ;
#161 = ADVANCED_FACE ( 'NONE', ( #318, #109 ), #62, .F. ) ;
#162 = AXIS2_PLACEMENT_3D ( 'NONE', #237, #159, #55 ) ;
#163 = DIRECTION ( 'NONE',  ( -1.000000000000000000, 0.000000000000000000, 0.000000000000000000 ) ) ;
#164 = AXIS2_PLACEMENT_3D ( 'NONE', #21, #69, #101 ) ;
#165 = CALENDAR_DATE ( 2021, 23, 8 ) ;
#166 = LENGTH_MEASURE_WITH_UNIT ( LENGTH_MEASURE( 0.02539999999999999897 ), #274 );
#167 = CIRCLE ( 'NONE', #302, 0.04400000000000000439 ) ;
#168 = DATE_AND_TIME ( #165, #223 ) ;
#169 = FACE_OUTER_BOUND ( 'NONE', #48, .T. ) ;
#170 = CARTESIAN_POINT ( 'NONE',  ( 0.1349999999999999811, 0.04900000000000000189, 0.000000000000000000 ) ) ;
#171 = ORIENTED_EDGE ( 'NONE', *, *, #99, .F. ) ;
#172 = AXIS2_PLACEMENT_3D ( 'NONE', #284, #260, #265 ) ;
#173 = EDGE_LOOP ( 'NONE', ( #191 ) ) ;
#174 = PERSON_AND_ORGANIZATION ( #292, #286 ) ;
#175 = FACE_OUTER_BOUND ( 'NONE', #277, .T. ) ;
#176 = ORIENTED_EDGE ( 'NONE', *, *, #295, .F. ) ;
#177 = DIRECTION ( 'NONE',  ( -0.000000000000000000, 0.000000000000000000, 1.000000000000000000 ) ) ;
#178 = PRODUCT_RELATED_PRODUCT_CATEGORY ( 'detail', '', ( #18 ) ) ;
#179 = VERTEX_POINT ( 'NONE', #287 ) ;
#180 = DIMENSIONAL_EXPONENTS ( 1.000000000000000000, 0.000000000000000000, 0.000000000000000000, 0.000000000000000000, 0.000000000000000000, 0.000000000000000000, 0.000000000000000000 ) ;
#181 = DATE_AND_TIME ( #134, #10 ) ;
#182 = CARTESIAN_POINT ( 'NONE',  ( 0.3130000000000000004, 0.000000000000000000, 0.000000000000000000 ) ) ;
#183 = DIRECTION ( 'NONE',  ( 0.000000000000000000, 0.000000000000000000, -1.000000000000000000 ) ) ;
#184 = PLANE ( 'NONE',  #162 ) ;
#185 = ORIENTED_EDGE ( 'NONE', *, *, #259, .F. ) ;
#186 = APPROVAL_ROLE ( '' ) ;
#187 = ADVANCED_FACE ( 'NONE', ( #85, #316 ), #263, .T. ) ;
#188 = VERTEX_POINT ( 'NONE', #240 ) ;
#189 = COORDINATED_UNIVERSAL_TIME_OFFSET ( 8, 0, .BEHIND. ) ;
#190 = EDGE_LOOP ( 'NONE', ( #171 ) ) ;
#191 = ORIENTED_EDGE ( 'NONE', *, *, #285, .F. ) ;
#192 = CARTESIAN_POINT ( 'NONE',  ( 0.000000000000000000, 0.000000000000000000, -0.004000000000000000083 ) ) ;
#193 = EDGE_LOOP ( 'NONE', ( #229 ) ) ;
#194 = FACE_BOUND ( 'NONE', #193, .T. ) ;
#195 = SECURITY_CLASSIFICATION ( '', '', #279 ) ;
#196 = DIRECTION ( 'NONE',  ( -1.000000000000000000, -0.000000000000000000, -0.000000000000000000 ) ) ;
#197 = CC_DESIGN_PERSON_AND_ORGANIZATION_ASSIGNMENT ( #174, #212, ( #209 ) ) ;
#198 = CIRCLE ( 'NONE', #204, 0.04400000000000000439 ) ;
#199 = DIRECTION ( 'NONE',  ( -1.000000000000000000, 0.000000000000000000, -0.000000000000000000 ) ) ;
#200 = DIRECTION ( 'NONE',  ( -1.000000000000000000, 0.000000000000000000, 0.000000000000000000 ) ) ;
#201 = AXIS2_PLACEMENT_3D ( 'NONE', #233, #139, #64 ) ;
#202 = EDGE_LOOP ( 'NONE', ( #243 ) ) ;
#203 = CARTESIAN_POINT ( 'NONE',  ( 0.000000000000000000, 0.000000000000000000, 0.000000000000000000 ) ) ;
#204 = AXIS2_PLACEMENT_3D ( 'NONE', #145, #148, #79 ) ;
#205 = CARTESIAN_POINT ( 'NONE',  ( 0.3150000000000000022, 0.006000000000000000125, 0.000000000000000000 ) ) ;
#206 = AXIS2_PLACEMENT_3D ( 'NONE', #107, #9, #324 ) ;
#207 = EDGE_LOOP ( 'NONE', ( #105 ) ) ;
#208 = CARTESIAN_POINT ( 'NONE',  ( 0.1329999999999999793, 0.000000000000000000, -0.04400000000000000439 ) ) ;
#209 = PRODUCT_DEFINITION_FORMATION_WITH_SPECIFIED_SOURCE ( 'ANY', '', #18, .NOT_KNOWN. ) ;
#210 = EDGE_LOOP ( 'NONE', ( #31 ) ) ;
#211 = DIRECTION ( 'NONE',  ( 0.000000000000000000, 0.000000000000000000, 1.000000000000000000 ) ) ;
#212 = PERSON_AND_ORGANIZATION_ROLE ( 'design_supplier' ) ;
#213 = DIRECTION ( 'NONE',  ( 0.000000000000000000, 0.000000000000000000, -1.000000000000000000 ) ) ;
#214 = APPLICATION_PROTOCOL_DEFINITION ( 'international standard', 'config_control_design', 1994, #304 ) ;
#215 = MANIFOLD_SOLID_BREP ( 'Cut-Extrude2', #138 ) ;
#216 = LOCAL_TIME ( 9, 24, 0.000000000000000000, #296 ) ;
#217 = DATE_TIME_ROLE ( 'creation_date' ) ;
#218 = AXIS2_PLACEMENT_3D ( 'NONE', #251, #226, #335 ) ;
#219 =( NAMED_UNIT ( * ) SI_UNIT ( $, .STERADIAN. ) SOLID_ANGLE_UNIT ( ) );
#220 = AXIS2_PLACEMENT_3D ( 'NONE', #222, #196, #155 ) ;
#221 = EDGE_LOOP ( 'NONE', ( #123 ) ) ;
#222 = CARTESIAN_POINT ( 'NONE',  ( 0.07499999999999999722, 0.000000000000000000, 0.000000000000000000 ) ) ;
#223 = LOCAL_TIME ( 9, 24, 0.000000000000000000, #142 ) ;
#224 = CIRCLE ( 'NONE', #83, 0.004000000000000000083 ) ;
#225 = CARTESIAN_POINT ( 'NONE',  ( 0.07299999999999999545, 0.000000000000000000, 0.000000000000000000 ) ) ;
#226 = DIRECTION ( 'NONE',  ( 1.000000000000000000, -0.000000000000000000, -0.000000000000000000 ) ) ;
#227 = ORIENTED_EDGE ( 'NONE', *, *, #15, .T. ) ;
#228 = FACE_OUTER_BOUND ( 'NONE', #87, .T. ) ;
#229 = ORIENTED_EDGE ( 'NONE', *, *, #125, .F. ) ;
#230 = ORIENTED_EDGE ( 'NONE', *, *, #234, .F. ) ;
#231 = VERTEX_POINT ( 'NONE', #338 ) ;
#232 = CALENDAR_DATE ( 2021, 23, 8 ) ;
#233 = CARTESIAN_POINT ( 'NONE',  ( 0.000000000000000000, 0.000000000000000000, 0.000000000000000000 ) ) ;
#234 = EDGE_CURVE ( 'NONE', #67, #67, #255, .T. ) ;
#235 = CARTESIAN_POINT ( 'NONE',  ( 0.1329999999999999793, 0.000000000000000000, 0.000000000000000000 ) ) ;
#236 = APPROVAL_DATE_TIME ( #23, #291 ) ;
#237 = CARTESIAN_POINT ( 'NONE',  ( 0.000000000000000000, 0.000000000000000000, 0.000000000000000000 ) ) ;
#238 = APPROVAL ( #93, 'UNSPECIFIED' ) ;
#239 = TOROIDAL_SURFACE ( 'NONE', #17, 0.004000000000000000083, 0.002000000000000000042 ) ;
#240 = CARTESIAN_POINT ( 'NONE',  ( 0.002000000000000000042, 0.000000000000000000, -0.006000000000000000125 ) ) ;
#241 = APPLICATION_PROTOCOL_DEFINITION ( 'international standard', 'config_control_design', 1994, #74 ) ;
#242 = PERSON_AND_ORGANIZATION_ROLE ( 'design_owner' ) ;
#243 = ORIENTED_EDGE ( 'NONE', *, *, #15, .F. ) ;
#244 = PRODUCT_DEFINITION ( 'UNKNOWN', '', #209, #312 ) ;
#245 = FACE_OUTER_BOUND ( 'NONE', #303, .T. ) ;
#246 = DIRECTION ( 'NONE',  ( 0.000000000000000000, 0.000000000000000000, -1.000000000000000000 ) ) ;
#247 = PRODUCT_DEFINITION_SHAPE ( 'NONE', 'NONE',  #244 ) ;
#248 = DIRECTION ( 'NONE',  ( 0.000000000000000000, 0.000000000000000000, 1.000000000000000000 ) ) ;
#249 = CYLINDRICAL_SURFACE ( 'NONE', #261, 0.04900000000000000883 ) ;
#250 = AXIS2_PLACEMENT_3D ( 'NONE', #3, #88, #213 ) ;
#251 = CARTESIAN_POINT ( 'NONE',  ( 0.1329999999999999793, 0.000000000000000000, 0.000000000000000000 ) ) ;
#252 = DIRECTION ( 'NONE',  ( -0.000000000000000000, 0.000000000000000000, 1.000000000000000000 ) ) ;
#253 = CARTESIAN_POINT ( 'NONE',  ( 0.3130000000000000004, 0.000000000000000000, 0.000000000000000000 ) ) ;
#254 = APPROVAL_STATUS ( 'not_yet_approved' ) ;
#255 = CIRCLE ( 'NONE', #320, 0.006000000000000000992 ) ;
#256 = DIRECTION ( 'NONE',  ( -1.000000000000000000, -0.000000000000000000, -0.000000000000000000 ) ) ;
#257 = DIRECTION ( 'NONE',  ( 0.000000000000000000, 0.000000000000000000, -1.000000000000000000 ) ) ;
#258 = DATE_AND_TIME ( #66, #216 ) ;
#259 = EDGE_CURVE ( 'NONE', #98, #98, #140, .T. ) ;
#260 = DIRECTION ( 'NONE',  ( -1.000000000000000000, -0.000000000000000000, -0.000000000000000000 ) ) ;
#261 = AXIS2_PLACEMENT_3D ( 'NONE', #124, #16, #122 ) ;
#262 = APPROVAL_ROLE ( '' ) ;
#263 = PLANE ( 'NONE',  #298 ) ;
#264 = FACE_OUTER_BOUND ( 'NONE', #20, .T. ) ;
#265 = DIRECTION ( 'NONE',  ( 0.000000000000000000, 0.000000000000000000, 1.000000000000000000 ) ) ;
#266 = CIRCLE ( 'NONE', #70, 0.04400000000000000439 ) ;
#267 = ADVANCED_FACE ( 'NONE', ( #30, #136 ), #239, .T. ) ;
#268 = CALENDAR_DATE ( 2021, 23, 8 ) ;
#269 = CC_DESIGN_SECURITY_CLASSIFICATION ( #195, ( #209 ) ) ;
#270 = APPROVAL_ROLE ( '' ) ;
#271 = ADVANCED_FACE ( 'NONE', ( #89 ), #184, .F. ) ;
#272 = CARTESIAN_POINT ( 'NONE',  ( 0.1349999999999999811, 0.000000000000000000, 0.04900000000000000189 ) ) ;
#273 = PERSON_AND_ORGANIZATION ( #292, #286 ) ;
#274 =( LENGTH_UNIT ( ) NAMED_UNIT ( * ) SI_UNIT ( $, .METRE. ) );
#275 = CARTESIAN_POINT ( 'NONE',  ( 0.1349999999999999811, 0.000000000000000000, -0.04400000000000000439 ) ) ;
#276 = FACE_OUTER_BOUND ( 'NONE', #49, .T. ) ;
#277 = EDGE_LOOP ( 'NONE', ( #230 ) ) ;
#278 = FACE_OUTER_BOUND ( 'NONE', #221, .T. ) ;
#279 = SECURITY_CLASSIFICATION_LEVEL ( 'unclassified' ) ;
#280 = EDGE_LOOP ( 'NONE', ( #97 ) ) ;
#281 = CARTESIAN_POINT ( 'NONE',  ( 0.1349999999999999811, 0.000000000000000000, 0.000000000000000000 ) ) ;
#282 = ORIENTED_EDGE ( 'NONE', *, *, #120, .T. ) ;
#283 = CYLINDRICAL_SURFACE ( 'NONE', #325, 0.006000000000000000992 ) ;
#284 = CARTESIAN_POINT ( 'NONE',  ( 0.1349999999999999811, 0.000000000000000000, 0.000000000000000000 ) ) ;
#285 = EDGE_CURVE ( 'NONE', #116, #116, #224, .T. ) ;
#286 = ORGANIZATION ( 'UNSPECIFIED', 'UNSPECIFIED', '' ) ;
#287 = CARTESIAN_POINT ( 'NONE',  ( 0.3150000000000000022, 0.000000000000000000, 0.004000000000000000951 ) ) ;
#288 = EDGE_LOOP ( 'NONE', ( #317 ) ) ;
#289 = DIRECTION ( 'NONE',  ( 1.000000000000000000, 0.000000000000000000, 0.000000000000000000 ) ) ;
#290 = DIRECTION ( 'NONE',  ( -1.000000000000000000, -0.000000000000000000, -0.000000000000000000 ) ) ;
#291 = APPROVAL ( #254, 'UNSPECIFIED' ) ;
#292 = PERSON ( 'UNSPECIFIED', 'UNSPECIFIED', 'UNSPECIFIED', ('UNSPECIFIED'), ('UNSPECIFIED'), ('UNSPECIFIED') ) ;
#293 = APPROVAL_DATE_TIME ( #168, #59 ) ;
#294 = CARTESIAN_POINT ( 'NONE',  ( 0.07499999999999999722, 0.000000000000000000, 0.006000000000000000992 ) ) ;
#295 = EDGE_CURVE ( 'NONE', #188, #188, #328, .T. ) ;
#296 = COORDINATED_UNIVERSAL_TIME_OFFSET ( 8, 0, .BEHIND. ) ;
#297 = CC_DESIGN_APPROVAL ( #59, ( #244 ) ) ;
#298 = AXIS2_PLACEMENT_3D ( 'NONE', #235, #56, #319 ) ;
#299 = APPROVAL_STATUS ( 'not_yet_approved' ) ;
#300 = VERTEX_POINT ( 'NONE', #294 ) ;
#301 = EDGE_CURVE ( 'NONE', #96, #96, #113, .T. ) ;
#302 = AXIS2_PLACEMENT_3D ( 'NONE', #281, #332, #151 ) ;
#303 = EDGE_LOOP ( 'NONE', ( #227 ) ) ;
#304 = APPLICATION_CONTEXT ( 'configuration controlled 3d designs of mechanical parts and assemblies' ) ;
#305 = ADVANCED_FACE ( 'NONE', ( #160, #264 ), #36, .T. ) ;
#306 = FACE_OUTER_BOUND ( 'NONE', #190, .T. ) ;
#307 = CC_DESIGN_APPROVAL ( #238, ( #209 ) ) ;
#308 = ORIENTED_EDGE ( 'NONE', *, *, #301, .F. ) ;
#309 = DIRECTION ( 'NONE',  ( 1.000000000000000000, 0.000000000000000000, 0.000000000000000000 ) ) ;
#310 = PERSON_AND_ORGANIZATION ( #292, #286 ) ;
#311 = ORIENTED_EDGE ( 'NONE', *, *, #144, .F. ) ;
#312 = DESIGN_CONTEXT ( 'detailed design', #304, 'design' ) ;
#313 = DIRECTION ( 'NONE',  ( -1.000000000000000000, 0.000000000000000000, -0.000000000000000000 ) ) ;
#314 = EDGE_CURVE ( 'NONE', #300, #300, #117, .T. ) ;
#315 = ORIENTED_EDGE ( 'NONE', *, *, #33, .F. ) ;
#316 = FACE_OUTER_BOUND ( 'NONE', #135, .T. ) ;
#317 = ORIENTED_EDGE ( 'NONE', *, *, #125, .T. ) ;
#318 = FACE_BOUND ( 'NONE', #202, .T. ) ;
#319 = DIRECTION ( 'NONE',  ( 0.000000000000000000, 0.000000000000000000, -1.000000000000000000 ) ) ;
#320 = AXIS2_PLACEMENT_3D ( 'NONE', #182, #1, #133 ) ;
#321 = CIRCLE ( 'NONE', #28, 0.04400000000000000439 ) ;
#322 = DIRECTION ( 'NONE',  ( 0.000000000000000000, 0.000000000000000000, 1.000000000000000000 ) ) ;
#323 = CC_DESIGN_APPROVAL ( #291, ( #195 ) ) ;
#324 = DIRECTION ( 'NONE',  ( 0.000000000000000000, 0.000000000000000000, 1.000000000000000000 ) ) ;
#325 = AXIS2_PLACEMENT_3D ( 'NONE', #203, #126, #50 ) ;
#326 = CIRCLE ( 'NONE', #164, 0.004000000000000000951 ) ;
#327 = ADVANCED_FACE ( 'NONE', ( #228 ), #27, .F. ) ;
#328 = CIRCLE ( 'NONE', #35, 0.006000000000000000125 ) ;
#329 = CARTESIAN_POINT ( 'NONE',  ( 0.1329999999999999793, 0.000000000000000000, 0.000000000000000000 ) ) ;
#330 = CC_DESIGN_DATE_AND_TIME_ASSIGNMENT ( #114, #217, ( #244 ) ) ;
#331 = FACE_OUTER_BOUND ( 'NONE', #207, .T. ) ;
#332 = DIRECTION ( 'NONE',  ( 1.000000000000000000, 0.000000000000000000, 0.000000000000000000 ) ) ;
#333 = EDGE_LOOP ( 'NONE', ( #185 ) ) ;
#334 = UNCERTAINTY_MEASURE_WITH_UNIT (LENGTH_MEASURE( 1.000000000000000082E-05 ), #43, 'distance_accuracy_value', 'NONE');
#335 = DIRECTION ( 'NONE',  ( 0.000000000000000000, 0.000000000000000000, -1.000000000000000000 ) ) ;
#336 = CARTESIAN_POINT ( 'NONE',  ( 0.07499999999999999722, 0.000000000000000000, 0.000000000000000000 ) ) ;
#337 = FACE_BOUND ( 'NONE', #53, .T. ) ;
#338 = CARTESIAN_POINT ( 'NONE',  ( 0.07499999999999999722, 0.000000000000000000, 0.04400000000000000439 ) ) ;
ENDSEC;
END-ISO-10303-21;
