ISO-10303-21;
HEADER;
FILE_DESCRIPTION (( 'STEP AP203' ),
    '1' );
FILE_NAME ('RG6A-U.step',
    '2020-04-14T16:17:18',
    ( '' ),
    ( '' ),
    'SwSTEP 2.0',
    'SolidWorks 2018',
    '' );
FILE_SCHEMA (( 'CONFIG_CONTROL_DESIGN' ));
ENDSEC;

DATA;
#1 = CIRCLE ( 'NONE', #127, 0.1660000000000000087 ) ;
#2 = DATE_AND_TIME ( #30, #126 ) ;
#3 = SHAPE_DEFINITION_REPRESENTATION ( #75, #25 ) ;
#4 = CARTESIAN_POINT ( 'NONE',  ( 0.0000000000000000000, 0.0000000000000000000, 3.000000000000000444 ) ) ;
#5 = APPROVAL_STATUS ( 'not_yet_approved' ) ;
#6 = APPROVAL_STATUS ( 'not_yet_approved' ) ;
#7 = LOCAL_TIME ( 9, 17, 18.00000000000000000, #10 ) ;
#8 = EDGE_LOOP ( 'NONE', ( #56 ) ) ;
#9 = PERSON_AND_ORGANIZATION ( #87, #98 ) ;
#10 = COORDINATED_UNIVERSAL_TIME_OFFSET ( 8, 0, .BEHIND. ) ;
#11 = CC_DESIGN_APPROVAL ( #79, ( #26 ) ) ;
#12 = LOCAL_TIME ( 9, 17, 18.00000000000000000, #48 ) ;
#13 = CC_DESIGN_PERSON_AND_ORGANIZATION_ASSIGNMENT ( #9, #69, ( #64 ) ) ;
#14 = CARTESIAN_POINT ( 'NONE',  ( 0.1660000000000000087, 0.0000000000000000000, 3.000000000000000444 ) ) ;
#15 = DIRECTION ( 'NONE',  ( 0.0000000000000000000, 0.0000000000000000000, 1.000000000000000000 ) ) ;
#16 = APPROVAL_ROLE ( '' ) ;
#17 = DATE_TIME_ROLE ( 'classification_date' ) ;
#18 = CIRCLE ( 'NONE', #107, 0.1660000000000000087 ) ;
#19 = APPROVAL_PERSON_ORGANIZATION ( #122, #79, #44 ) ;
#20 = DATE_AND_TIME ( #95, #7 ) ;
#21 = CC_DESIGN_APPROVAL ( #111, ( #64 ) ) ;
#22 = CALENDAR_DATE ( 2020, 14, 4 ) ;
#23 = PERSON_AND_ORGANIZATION_ROLE ( 'creator' ) ;
#24 = DIRECTION ( 'NONE',  ( 0.0000000000000000000, 0.0000000000000000000, 1.000000000000000000 ) ) ;
#25 = ADVANCED_BREP_SHAPE_REPRESENTATION ( 'RG6A-U', ( #114, #46 ), #105 ) ;
#26 = PRODUCT_DEFINITION ( 'UNKNOWN', '', #51, #101 ) ;
#27 = CARTESIAN_POINT ( 'NONE',  ( 0.0000000000000000000, 0.0000000000000000000, 3.000000000000000444 ) ) ;
#28 = CC_DESIGN_DATE_AND_TIME_ASSIGNMENT ( #84, #61, ( #26 ) ) ;
#29 = VERTEX_POINT ( 'NONE', #14 ) ;
#30 = CALENDAR_DATE ( 2020, 14, 4 ) ;
#31 = EDGE_LOOP ( 'NONE', ( #99 ) ) ;
#32 = APPROVAL_PERSON_ORGANIZATION ( #38, #123, #76 ) ;
#33 = FACE_OUTER_BOUND ( 'NONE', #8, .T. ) ;
#34 = PERSON_AND_ORGANIZATION_ROLE ( 'design_owner' ) ;
#35 = APPLICATION_CONTEXT ( 'configuration controlled 3d designs of mechanical parts and assemblies' ) ;
#36 = APPLICATION_PROTOCOL_DEFINITION ( 'international standard', 'config_control_design', 1994, #47 ) ;
#37 = DATE_AND_TIME ( #40, #86 ) ;
#38 = PERSON_AND_ORGANIZATION ( #87, #98 ) ;
#39 = AXIS2_PLACEMENT_3D ( 'NONE', #115, #118, #121 ) ;
#40 = CALENDAR_DATE ( 2020, 14, 4 ) ;
#41 = EDGE_LOOP ( 'NONE', ( #96 ) ) ;
#42 = CARTESIAN_POINT ( 'NONE',  ( 0.0000000000000000000, 0.0000000000000000000, 3.000000000000000444 ) ) ;
#43 = DIRECTION ( 'NONE',  ( -0.0000000000000000000, -0.0000000000000000000, -1.000000000000000000 ) ) ;
#44 = APPROVAL_ROLE ( '' ) ;
#45 = PERSON_AND_ORGANIZATION_ROLE ( 'design_supplier' ) ;
#46 = AXIS2_PLACEMENT_3D ( 'NONE', #78, #131, #54 ) ;
#47 = APPLICATION_CONTEXT ( 'configuration controlled 3d designs of mechanical parts and assemblies' ) ;
#48 = COORDINATED_UNIVERSAL_TIME_OFFSET ( 8, 0, .BEHIND. ) ;
#49 = VERTEX_POINT ( 'NONE', #62 ) ;
#50 = CC_DESIGN_PERSON_AND_ORGANIZATION_ASSIGNMENT ( #73, #45, ( #51 ) ) ;
#51 = PRODUCT_DEFINITION_FORMATION_WITH_SPECIFIED_SOURCE ( 'ANY', '', #77, .NOT_KNOWN. ) ;
#52 = CLOSED_SHELL ( 'NONE', ( #57, #112, #109 ) ) ;
#53 = PERSON_AND_ORGANIZATION_ROLE ( 'creator' ) ;
#54 = DIRECTION ( 'NONE',  ( 1.000000000000000000, 0.0000000000000000000, 0.0000000000000000000 ) ) ;
#55 = MECHANICAL_CONTEXT ( 'NONE', #47, 'mechanical' ) ;
#56 = ORIENTED_EDGE ( 'NONE', *, *, #89, .F. ) ;
#57 = ADVANCED_FACE ( 'NONE', ( #33, #80 ), #81, .T. ) ;
#58 = CC_DESIGN_DATE_AND_TIME_ASSIGNMENT ( #37, #17, ( #64 ) ) ;
#59 = PERSON_AND_ORGANIZATION ( #87, #98 ) ;
#60 = COORDINATED_UNIVERSAL_TIME_OFFSET ( 8, 0, .BEHIND. ) ;
#61 = DATE_TIME_ROLE ( 'creation_date' ) ;
#62 = CARTESIAN_POINT ( 'NONE',  ( 0.1660000000000000087, 0.0000000000000000000, -3.000000000000000444 ) ) ;
#63 = SECURITY_CLASSIFICATION_LEVEL ( 'unclassified' ) ;
#64 = SECURITY_CLASSIFICATION ( '', '', #63 ) ;
#65 = AXIS2_PLACEMENT_3D ( 'NONE', #42, #43, #74 ) ;
#66 = CALENDAR_DATE ( 2020, 14, 4 ) ;
#67 = COORDINATED_UNIVERSAL_TIME_OFFSET ( 8, 0, .BEHIND. ) ;
#68 =( NAMED_UNIT ( * ) SI_UNIT ( $, .STERADIAN. ) SOLID_ANGLE_UNIT ( ) );
#69 = PERSON_AND_ORGANIZATION_ROLE ( 'classification_officer' ) ;
#70 = AXIS2_PLACEMENT_3D ( 'NONE', #27, #88, #130 ) ;
#71 = DIRECTION ( 'NONE',  ( 1.000000000000000000, 0.0000000000000000000, 0.0000000000000000000 ) ) ;
#72 = PLANE ( 'NONE',  #70 ) ;
#73 = PERSON_AND_ORGANIZATION ( #87, #98 ) ;
#74 = DIRECTION ( 'NONE',  ( -1.000000000000000000, 0.0000000000000000000, 0.0000000000000000000 ) ) ;
#75 = PRODUCT_DEFINITION_SHAPE ( 'NONE', 'NONE',  #26 ) ;
#76 = APPROVAL_ROLE ( '' ) ;
#77 = PRODUCT ( 'RG6A-U', 'RG6A-U', '', ( #55 ) ) ;
#78 = CARTESIAN_POINT ( 'NONE',  ( 0.0000000000000000000, 0.0000000000000000000, 0.0000000000000000000 ) ) ;
#79 = APPROVAL ( #102, 'UNSPECIFIED' ) ;
#80 = FACE_OUTER_BOUND ( 'NONE', #41, .T. ) ;
#81 = CYLINDRICAL_SURFACE ( 'NONE', #65, 0.1660000000000000087 ) ;
#82 = DATE_AND_TIME ( #66, #12 ) ;
#83 = CC_DESIGN_PERSON_AND_ORGANIZATION_ASSIGNMENT ( #59, #34, ( #77 ) ) ;
#84 = DATE_AND_TIME ( #22, #133 ) ;
#85 = PLANE ( 'NONE',  #39 ) ;
#86 = LOCAL_TIME ( 9, 17, 18.00000000000000000, #113 ) ;
#87 = PERSON ( 'UNSPECIFIED', 'UNSPECIFIED', 'UNSPECIFIED', ('UNSPECIFIED'), ('UNSPECIFIED'), ('UNSPECIFIED') ) ;
#88 = DIRECTION ( 'NONE',  ( 0.0000000000000000000, 0.0000000000000000000, 1.000000000000000000 ) ) ;
#89 = EDGE_CURVE ( 'NONE', #29, #29, #1, .T. ) ;
#90 = CC_DESIGN_APPROVAL ( #123, ( #51 ) ) ;
#91 = APPROVAL_DATE_TIME ( #82, #111 ) ;
#92 = FACE_OUTER_BOUND ( 'NONE', #31, .T. ) ;
#93 = APPROVAL_DATE_TIME ( #20, #123 ) ;
#94 = DIMENSIONAL_EXPONENTS ( 1.000000000000000000, 0.0000000000000000000, 0.0000000000000000000, 0.0000000000000000000, 0.0000000000000000000, 0.0000000000000000000, 0.0000000000000000000 ) ;
#95 = CALENDAR_DATE ( 2020, 14, 4 ) ;
#96 = ORIENTED_EDGE ( 'NONE', *, *, #125, .T. ) ;
#97 = CC_DESIGN_PERSON_AND_ORGANIZATION_ASSIGNMENT ( #138, #23, ( #26 ) ) ;
#98 = ORGANIZATION ( 'UNSPECIFIED', 'UNSPECIFIED', '' ) ;
#99 = ORIENTED_EDGE ( 'NONE', *, *, #89, .T. ) ;
#100 = CC_DESIGN_PERSON_AND_ORGANIZATION_ASSIGNMENT ( #117, #53, ( #51 ) ) ;
#101 = DESIGN_CONTEXT ( 'detailed design', #35, 'design' ) ;
#102 = APPROVAL_STATUS ( 'not_yet_approved' ) ;
#103 =( CONVERSION_BASED_UNIT ( 'INCH', #136 ) LENGTH_UNIT ( ) NAMED_UNIT ( #94 ) );
#104 = EDGE_LOOP ( 'NONE', ( #110 ) ) ;
#105 =( GEOMETRIC_REPRESENTATION_CONTEXT ( 3 ) GLOBAL_UNCERTAINTY_ASSIGNED_CONTEXT ( ( #124 ) ) GLOBAL_UNIT_ASSIGNED_CONTEXT ( ( #103, #116, #68 ) ) REPRESENTATION_CONTEXT ( 'NONE', 'WORKASPACE' ) );
#106 =( LENGTH_UNIT ( ) NAMED_UNIT ( * ) SI_UNIT ( $, .METRE. ) );
#107 = AXIS2_PLACEMENT_3D ( 'NONE', #132, #24, #119 ) ;
#108 = APPROVAL_DATE_TIME ( #2, #79 ) ;
#109 = ADVANCED_FACE ( 'NONE', ( #129 ), #85, .F. ) ;
#110 = ORIENTED_EDGE ( 'NONE', *, *, #125, .F. ) ;
#111 = APPROVAL ( #6, 'UNSPECIFIED' ) ;
#112 = ADVANCED_FACE ( 'NONE', ( #92 ), #72, .T. ) ;
#113 = COORDINATED_UNIVERSAL_TIME_OFFSET ( 8, 0, .BEHIND. ) ;
#114 = MANIFOLD_SOLID_BREP ( 'Boss-Extrude1', #52 ) ;
#115 = CARTESIAN_POINT ( 'NONE',  ( 0.0000000000000000000, 0.0000000000000000000, -3.000000000000000444 ) ) ;
#116 =( NAMED_UNIT ( * ) PLANE_ANGLE_UNIT ( ) SI_UNIT ( $, .RADIAN. ) );
#117 = PERSON_AND_ORGANIZATION ( #87, #98 ) ;
#118 = DIRECTION ( 'NONE',  ( 0.0000000000000000000, 0.0000000000000000000, 1.000000000000000000 ) ) ;
#119 = DIRECTION ( 'NONE',  ( 1.000000000000000000, 0.0000000000000000000, 0.0000000000000000000 ) ) ;
#120 = PRODUCT_RELATED_PRODUCT_CATEGORY ( 'detail', '', ( #77 ) ) ;
#121 = DIRECTION ( 'NONE',  ( 1.000000000000000000, 0.0000000000000000000, -0.0000000000000000000 ) ) ;
#122 = PERSON_AND_ORGANIZATION ( #87, #98 ) ;
#123 = APPROVAL ( #5, 'UNSPECIFIED' ) ;
#124 = UNCERTAINTY_MEASURE_WITH_UNIT (LENGTH_MEASURE( 1.000000000000000082E-05 ), #103, 'distance_accuracy_value', 'NONE');
#125 = EDGE_CURVE ( 'NONE', #49, #49, #18, .T. ) ;
#126 = LOCAL_TIME ( 9, 17, 18.00000000000000000, #67 ) ;
#127 = AXIS2_PLACEMENT_3D ( 'NONE', #4, #15, #71 ) ;
#128 = PERSON_AND_ORGANIZATION ( #87, #98 ) ;
#129 = FACE_OUTER_BOUND ( 'NONE', #104, .T. ) ;
#130 = DIRECTION ( 'NONE',  ( 1.000000000000000000, 0.0000000000000000000, -0.0000000000000000000 ) ) ;
#131 = DIRECTION ( 'NONE',  ( 0.0000000000000000000, 0.0000000000000000000, 1.000000000000000000 ) ) ;
#132 = CARTESIAN_POINT ( 'NONE',  ( 0.0000000000000000000, 0.0000000000000000000, -3.000000000000000444 ) ) ;
#133 = LOCAL_TIME ( 9, 17, 18.00000000000000000, #60 ) ;
#134 = APPLICATION_PROTOCOL_DEFINITION ( 'international standard', 'config_control_design', 1994, #35 ) ;
#135 = APPROVAL_PERSON_ORGANIZATION ( #128, #111, #16 ) ;
#136 = LENGTH_MEASURE_WITH_UNIT ( LENGTH_MEASURE( 0.02539999999999999897 ), #106 );
#137 = CC_DESIGN_SECURITY_CLASSIFICATION ( #64, ( #51 ) ) ;
#138 = PERSON_AND_ORGANIZATION ( #87, #98 ) ;
ENDSEC;
END-ISO-10303-21;
